756 songs from 177 artists viewed 1361115 times since January 20, 2005
 ARTISTS
Listed by Band or Artist's First Name
(
View All Songs)
A B C D E F G H I J K L M
N O P Q R S T U V W X Y Z
0-9

Alan Jackson - Love's Got a Hold On You

Printable Version


From "Don't Rock The Jukebox" (1991)
(Keith Stegall, Carson Chamberlain)

Tab By: Jeff Gary

Capo: 2nd Fret

INTRO:  [D]  (x2)
e|--------------------------------|---------------------------------|
B|--------------------------------|---------------------------------|
G|--------------------------------|---------------------------------|
D|-0-0----------------------------|-0-0-------------------0---2-0---|
A|-------0-2-0---0-2-0---0-2-0----|-------0-2-0---0-2-0-----0-----2-|
E|-----2-------2-------2-------1b-|-----2-------2-------2-----------|

[D]Called my doctor on the [G]tele[D]phone
[D]Help me Doctor, [G]somethin’s [D]wrong
[D]I can't shake it it’s [G]gone too [D]far
[D]He said, “Tell me what your [G]symptoms [D]are.”

CHORUS:
I said, “My [G]hands are sweaty and my [D]knees are weak
[A7]I can't eat, and [D]I can't sleep
It’s [G]turnin’ me every[D]way but [G]loose.”
He said, “It [D]sounds like love’s got a hold on [G]you
[D]No doubt love’s got a [G]hold on [D]you.”

INTRO (1/2)

[D]I told my buddies I was [G]settlin’ [D]down
[D]No more of this [G]runnin’ [D]‘round
[D]They looked at me like [G]I was a [D]fool
[D]And said, ”Boy, tell us what’s [G]wrong with [D]you.” 

CHORUS

BRIDGE:
I [A7]toss and turn ‘til the [D]mornin’ light
[A7]Holdin’ my pillow, hangin’ [D]on for life
[A7]There ain't nothin’ [D]I can [G]do
They said, “It [D]sounds like love’s got a [G]hold on [D]you
[D]No doubt love’s got a [G]hold on [D]you.”

INSTRUMENTAL:  [D]
e|---------------------------------|-------------------------|
B|---------------------------------|-------------------------|
G|---------------------------------|-------------------------|
D|---------------------------------|-------------------------|
A|-----0-----0-----0-----0-2-0-----|-----0-----0---0-2-0-----|
E|-0-2---0-2---0-2---0-2-------1b0-|-0-2---0-2---2-------1b0-|

e|---------------------------------|-------------------------|
B|---------------------------------|-------------------------|
G|---------------------------------|-------------------------|
D|-----0-----0-----0-----0---2-0---|-----0-----0-------------|
A|-0-2---0-2---0-2---0-2---0-----2-|-0-2---0-2---2-0-4-0-----|
E|---------------------------------|---------------------1b0-|

CHORUS

[D]Sounds like love’s got a [G]hold on [D]you
[D]Sounds like love’s got a [G]hold on [D]you
[D]No doubt love’s got a [G]hold on [D]you

INTRO
 HOME
Top Artists
 Alan Jackson 63 
 Tim McGraw 49 
 Garth Brooks 47 
 Kasey Chambers 41 
 Great Big Sea 35 
 Dierks Bentley 32 
 Matchbox Twenty 25 
 Bon Jovi 20 
 Avril Lavigne 19 
 Weird Al Yankovic 18 
 Toby Keith 12 
 Shania Twain 12 
Top Viewed Artists
 Alan Jackson 127099 
 Garth Brooks 122599 
 Tim McGraw 92133 
 Great Big Sea 65519 
 Kasey Chambers 55028 
 Dierks Bentley 49636 
 Matchbox Twenty 48010 
 Bon Jovi 37252 
 "Weird Al" 36484 
 Avril Lavigne 30720 
 Toby Keith 29158 
 Brad Paisley 25172 
Chords
 A Chords
 A# (Bb) Chords
 B Chords
 C Chords
 C# (Db) Chords
 D Chords
 D# (Eb) Chords
 E Chords
 F Chords
 F# (Gb) Chords
 G Chords
 G# (Ab) Chords
Links
 Country Tabs
 E-Tabs
 Oh Cannada Tabs
 Tab Crawler
 Tab Robot
 Ultimate Guitar
E-Mail