756 songs from 177 artists viewed 1360839 times since January 20, 2005
 ARTISTS
Listed by Band or Artist's First Name
(
View All Songs)
A B C D E F G H I J K L M
N O P Q R S T U V W X Y Z
0-9

Tim McGraw - Maybe We Could Just Sleep On It

Printable Version


INTRO:
  [G]                     [C]                    [G]
e|---------------------------------------------------|
B|-3-------3---------------3-------3-----------------|
G|-----------------2-4-2-------------------2-4-2-----|
D|---5-4-5---5-4-5-------5---5-4-5---5-4-5-------5---|
A|-------------------------------------------------5-|
E|---------------------------------------------------|

[G]I got an empty feeling when that [C]moving van pulled up
[G]It got a whole lot emptier as I [D]watched them fill that truck
[G]And when they carried out your clothes it [C]took my breath away
[D]Now they're headed for that bed, 
[C] the[D] thought keeps running through my head

CHORUS:
[G]Baby, maybe we could just [C]sleep on it tonight
And [D]give our hearts just one more [G]chance to change our minds
I could be wrong but girl [C]I just don't feel right
So [D]baby, [C]maybe we should just [G]sleep on it tonight

INTRO

[G]I'll pay them boys to stop right now and leave that [C]truck out on the curb
[G]The TV and the phone's packed up, so [D]we won't be disturbed
[G]There's not a light left in this room, just a [C]shadow of a doubt
[D]So let's make sure we don't give up [C]
[D] before we've thought this through enough

CHORUS

So [D]baby, [C]maybe we should just [G]sleep on it tonight
So [D]baby, [C]maybe we should just [G]sleep on it tonight

OUTRO (x3)
  [G]                     [C]
e|-----------------------------------------|
B|-3-------3---------------3-------3-------|
G|-----------------2-4-2-------------------|
D|---5-4-5---5-4-5-------5---5-4-5---5-4-5-|
A|-----------------------------------------|
E|-----------------------------------------|
 HOME
Top Artists
 Alan Jackson 63 
 Tim McGraw 49 
 Garth Brooks 47 
 Kasey Chambers 41 
 Great Big Sea 35 
 Dierks Bentley 32 
 Matchbox Twenty 25 
 Bon Jovi 20 
 Avril Lavigne 19 
 Weird Al Yankovic 18 
 Toby Keith 12 
 Shania Twain 12 
Top Viewed Artists
 Alan Jackson 127039 
 Garth Brooks 122581 
 Tim McGraw 92093 
 Great Big Sea 65512 
 Kasey Chambers 55023 
 Dierks Bentley 49617 
 Matchbox Twenty 47978 
 Bon Jovi 37248 
 "Weird Al" 36477 
 Avril Lavigne 30717 
 Toby Keith 29158 
 Brad Paisley 25168 
Chords
 A Chords
 A# (Bb) Chords
 B Chords
 C Chords
 C# (Db) Chords
 D Chords
 D# (Eb) Chords
 E Chords
 F Chords
 F# (Gb) Chords
 G Chords
 G# (Ab) Chords
Links
 Country Tabs
 E-Tabs
 Oh Cannada Tabs
 Tab Crawler
 Tab Robot
 Ultimate Guitar
E-Mail