756 songs from 177 artists viewed 1360875 times since January 20, 2005
 ARTISTS
Listed by Band or Artist's First Name
(
View All Songs)
A B C D E F G H I J K L M
N O P Q R S T U V W X Y Z
0-9

Matchbox Twenty - Cold

Printable Version


From "More than You think You Are" (2002)
(Rob Thomas, Matt Serletic)

Tab by: Andy Whiteway (andrewwhiteway@hotmail.com)

INTRO:
e|------------------------------|--------------------------------|
B|------------------------------|--------------------------------|
G|------------------------------|------------------------5b-5b---|
D|--5-7-5-7-7-5-7-5-7-5---5-7---|--5-7-5-7-7-5-7-5---5-7---------|
A|----------------------7-------|------------------7-------------|
E|------------------------------|--------------------------------|

Tab during Verses:
A|------------------
E|---3-5-3-5-5-3-5--

I will do with the spaces in between
If you can tell me now what it means to be
You have been found out
I have been decieved
By the one that I need

CHORUS:
[C]Tell me way you gotta be so cold
[G]How'd you get so high, why you keeping me low
[Am]You don't know, you [F]don't know
[C]Tell me how we're gonna make it last
You're [G]ready to fly, I'm [E]ready to crash
[Am] Don't go, [F]don't go

You will go without the better part of me
There will be no doubt what this all could mean
You will be found out
I can not believe
In the one that I need

CHORUS

INSTRUMENTAL:   [C]   [G]   [Am]   [G]   (x2)
                (and repeat intro)

CHORUS (up one step):
[D]Tell me way you gotta be so cold
How'd you [A]get so high, why you keeping me low
[Bm]You don't know, you [G]don't know
[D]Tell me how we're gonna make it last
You're [A]ready to fly, I'm [F#]ready to crash
[Bm] Don't go, [G]don't go

[D]Tell me why you gotta be so cold
Tell me [A]anything about you I don't [Bm]know
Yeah, i don't [G]know by now, know by
[D]Tell me how were gonna make it last
You're [A]ready to fly, i'm [F#]ready to crash
[Bm] Don't go, [G]don't go

OUTRO:
e|----------------------------------------------|
B|----------------------------------------------|
G|----------------------------------------------|
D|--7-9-7-9-9-7-9-7-9-7---7-9--7-9-7-9-9-7-9-s~-|
A|----------------------9-----------------------|
E|----------------------------------------------|
 HOME
Top Artists
 Alan Jackson 63 
 Tim McGraw 49 
 Garth Brooks 47 
 Kasey Chambers 41 
 Great Big Sea 35 
 Dierks Bentley 32 
 Matchbox Twenty 25 
 Bon Jovi 20 
 Avril Lavigne 19 
 Weird Al Yankovic 18 
 Toby Keith 12 
 Shania Twain 12 
Top Viewed Artists
 Alan Jackson 127039 
 Garth Brooks 122581 
 Tim McGraw 92126 
 Great Big Sea 65512 
 Kasey Chambers 55023 
 Dierks Bentley 49617 
 Matchbox Twenty 47981 
 Bon Jovi 37248 
 "Weird Al" 36477 
 Avril Lavigne 30717 
 Toby Keith 29158 
 Brad Paisley 25168 
Chords
 A Chords
 A# (Bb) Chords
 B Chords
 C Chords
 C# (Db) Chords
 D Chords
 D# (Eb) Chords
 E Chords
 F Chords
 F# (Gb) Chords
 G Chords
 G# (Ab) Chords
Links
 Country Tabs
 E-Tabs
 Oh Cannada Tabs
 Tab Crawler
 Tab Robot
 Ultimate Guitar
E-Mail