756 songs from 177 artists viewed 1361268 times since January 20, 2005
 ARTISTS
Listed by Band or Artist's First Name
(
View All Songs)
A B C D E F G H I J K L M
N O P Q R S T U V W X Y Z
0-9

Kasey Chambers - Not Pretty Enough

Printable Version


From "Barricades & Brickwalls" (2002)
(Kasey Chambers)

Capo: 4th Fret

LEAD (Played during first chorus)
    [G]           [D]           [Em]          [C]           (x3)
e|-------------|-------2-----|-------------|-------------|
B|-------3-----|---3-----3---|-------3-----|-------1-----|
G|---0---------|-----2-------|---0---------|---0-----0---|
D|-----0-------|-0---------0-|-----2-------|-----2-------|
A|-------------|-------------|-------------|-3---------3-|
E|-3-----------|-------------|-0-----------|-------------|

    [G]           [D]         [Cadd9]
E|-------------|-------2-----|--3--|
B|-------3-----|---3-----3---|--3--|
G|---0---------|-----2-------|--0--|
D|-----0-------|-0---------0-|--2--|
A|-------------|-------------|--3--|
E|-3-----------|-------------|-----|

CHORUS:
[G]   Am I not [D]pretty enough
[Em]  Is my [C]heart to broken
[G]   Do I [D]cry to much
[Em]  Am I [C]to outspoken
[G]   Don't I [D]make you laugh
[Em]  Should I [C]try it harder
[G]   Why do you [D]see right [Cadd9]through me

[G]   I live, [D] I breathe 
[Em]  I let it [C]rain on me
[G]   I sleep, [D] I wake
[Em]  I try hard [C]not to break
[G]   I crave, [D] I love
[Em]  I've waited [C]long enough
[G]   I try as [D]hard as I [Cadd9]can

CHORUS

[G]   I laugh, [D] I feel 
[Em]  I make be[C]lieve it's real
[G]   I fall, [D] I freeze
[Em]  I pray down [C]on my knees
[G]   I hope, [D] I stand
[Em]  I take it [C]like a man
[G]   I try as [D]hard as I [Cadd9]can

CHORUS

OUTRO: (x4)
Why do you [G]see, Why do you [D]see 
Why do you [Cadd9]see right through me
 HOME
Top Artists
 Alan Jackson 63 
 Tim McGraw 49 
 Garth Brooks 47 
 Kasey Chambers 41 
 Great Big Sea 35 
 Dierks Bentley 32 
 Matchbox Twenty 25 
 Bon Jovi 20 
 Avril Lavigne 19 
 Weird Al Yankovic 18 
 Toby Keith 12 
 Shania Twain 12 
Top Viewed Artists
 Alan Jackson 127109 
 Garth Brooks 122609 
 Tim McGraw 92136 
 Great Big Sea 65524 
 Kasey Chambers 55073 
 Dierks Bentley 49637 
 Matchbox Twenty 48012 
 Bon Jovi 37259 
 "Weird Al" 36503 
 Avril Lavigne 30742 
 Toby Keith 29158 
 Brad Paisley 25172 
Chords
 A Chords
 A# (Bb) Chords
 B Chords
 C Chords
 C# (Db) Chords
 D Chords
 D# (Eb) Chords
 E Chords
 F Chords
 F# (Gb) Chords
 G Chords
 G# (Ab) Chords
Links
 Country Tabs
 E-Tabs
 Oh Cannada Tabs
 Tab Crawler
 Tab Robot
 Ultimate Guitar
E-Mail