756 songs from 177 artists viewed 1361099 times since January 20, 2005
 ARTISTS
Listed by Band or Artist's First Name
(
View All Songs)
A B C D E F G H I J K L M
N O P Q R S T U V W X Y Z
0-9

Alan Jackson - Chattahoochee

Printable Version


From "A Lot About Livin' (And A Little 'Bout Love)" (1992)
(Alan Jackson, Jim McBride)

INTRO:  [C]
E|----------------------------|-----------------------------|  (x2)
B|----------------------------|-----------------------------|
G|--------------------------0-|-----------------------------|
D|---------------------0h2----|----------------------2p0----|
A|-2h3--2h3--2h3--2h3---------|-2h3--2h3--2h3-------------3-|
E|----------------------------|----------------3--3---------|

E|----------------------------|-----------------------------------|
B|----------------------------|-1--0------------------------------|
G|--------------------------0-|-------2--0--------0--2--0---------|
D|---------------------0h2----|-------------2--3-----------2p0----|
A|-2h3--2h3--2h3--2h3---------|---------------------------------3-|
E|----------------------------|-----------------------------------|

Well, [C]way down yonder on the chattahoochee
It gets hotter than a [G]hoochie [C]coochie
We laid rubber on the Georgia asphalt
We got a little crazy but we [G]never got [C]caught

PRE-CHORUS:
[F]Down by the river on a Friday night
A [C]pyramid of cans in the [G]pale moon[C]light
[F]Talkin' 'bout cars and dreamin' 'bout women
[D]Never had a plan just [G]livin' for the minute

CHORUS:
Well, [C]way down yonder on the chattahoochee
Never knew how much that muddy water [G]meant to [C]me
But I learned how to swim and learned who I was
A lot about livin' and a [G]little 'bout [C]love

INTRO

Well, we [C]fogged up the windows in my old Chevy
I was willin' but [G]she wasn't [C]ready
So I settled for a burger and a grape sno-cone
I dropped her off early but I [G]didn't go [C]home

PRE-CHORUS

CHORUS

INSTRUMENTAL:  [C]         [G]  [C]        [G]  [C]

CHORUS

A lot about livin' and a [G]little 'bout [C]love

INTRO
 HOME
Top Artists
 Alan Jackson 63 
 Tim McGraw 49 
 Garth Brooks 47 
 Kasey Chambers 41 
 Great Big Sea 35 
 Dierks Bentley 32 
 Matchbox Twenty 25 
 Bon Jovi 20 
 Avril Lavigne 19 
 Weird Al Yankovic 18 
 Toby Keith 12 
 Shania Twain 12 
Top Viewed Artists
 Alan Jackson 127083 
 Garth Brooks 122599 
 Tim McGraw 92133 
 Great Big Sea 65519 
 Kasey Chambers 55028 
 Dierks Bentley 49636 
 Matchbox Twenty 48010 
 Bon Jovi 37252 
 "Weird Al" 36484 
 Avril Lavigne 30720 
 Toby Keith 29158 
 Brad Paisley 25172 
Chords
 A Chords
 A# (Bb) Chords
 B Chords
 C Chords
 C# (Db) Chords
 D Chords
 D# (Eb) Chords
 E Chords
 F Chords
 F# (Gb) Chords
 G Chords
 G# (Ab) Chords
Links
 Country Tabs
 E-Tabs
 Oh Cannada Tabs
 Tab Crawler
 Tab Robot
 Ultimate Guitar
E-Mail